  0
SECTION
  2
HEADER
  9
$ACADVER
  1
AC1009
  9
$DWGCODEPAGE
  3
ansi_1252
  9
$INSBASE
 10
0.0
 20
0.0
 30
0.0
  9
$EXTMIN
 10
-181.8622641509434
 20
141.8377358490566
 30
0.0
  9
$EXTMAX
 10
358.5192289224614
 20
306.767764369032
 30
0.0
  9
$LIMMIN
 10
0.0
 20
0.0
  9
$LIMMAX
 10
420.0
 20
297.0
  9
$ORTHOMODE
 70
     0
  9
$REGENMODE
 70
     1
  9
$FILLMODE
 70
     1
  9
$QTEXTMODE
 70
     0
  9
$MIRRTEXT
 70
     0
  9
$DRAGMODE
 70
     2
  9
$LTSCALE
 40
1.0
  9
$OSMODE
 70
   511
  9
$ATTMODE
 70
     1
  9
$TEXTSIZE
 40
2.5
  9
$TRACEWID
 40
1.0
  9
$TEXTSTYLE
  7
STANDARD
  9
$CLAYER
  8
0
  9
$CELTYPE
  6
BYLAYER
  9
$CECOLOR
 62
   256
  9
$DIMSCALE
 40
1.0
  9
$DIMASZ
 40
2.5
  9
$DIMEXO
 40
0.625
  9
$DIMDLI
 40
3.75
  9
$DIMRND
 40
0.0
  9
$DIMDLE
 40
0.0
  9
$DIMEXE
 40
1.25
  9
$DIMTP
 40
0.0
  9
$DIMTM
 40
0.0
  9
$DIMTXT
 40
2.5
  9
$DIMCEN
 40
2.5
  9
$DIMTSZ
 40
0.0
  9
$DIMTOL
 70
     0
  9
$DIMLIM
 70
     0
  9
$DIMTIH
 70
     0
  9
$DIMTOH
 70
     0
  9
$DIMSE1
 70
     0
  9
$DIMSE2
 70
     0
  9
$DIMTAD
 70
     1
  9
$DIMZIN
 70
     8
  9
$DIMBLK
  1

  9
$DIMASO
 70
     1
  9
$DIMSHO
 70
     1
  9
$DIMPOST
  1

  9
$DIMAPOST
  1

  9
$DIMALT
 70
     0
  9
$DIMALTD
 70
     3
  9
$DIMALTF
 40
0.03937007874016
  9
$DIMLFAC
 40
1.0
  9
$DIMTOFL
 70
     1
  9
$DIMTVP
 40
0.0
  9
$DIMTIX
 70
     0
  9
$DIMSOXD
 70
     0
  9
$DIMSAH
 70
     0
  9
$DIMBLK1
  1

  9
$DIMBLK2
  1

  9
$DIMSTYLE
  2
ISO-25
  9
$DIMCLRD
 70
     0
  9
$DIMCLRE
 70
     0
  9
$DIMCLRT
 70
     0
  9
$DIMTFAC
 40
1.0
  9
$DIMGAP
 40
0.625
  9
$LUNITS
 70
     2
  9
$LUPREC
 70
     3
  9
$SKETCHINC
 40
1.0
  9
$FILLETRAD
 40
10.0
  9
$AUNITS
 70
     0
  9
$AUPREC
 70
     0
  9
$MENU
  1
.
  9
$ELEVATION
 40
0.0
  9
$PELEVATION
 40
0.0
  9
$THICKNESS
 40
0.0
  9
$LIMCHECK
 70
     0
  9
$CHAMFERA
 40
10.0
  9
$CHAMFERB
 40
10.0
  9
$SKPOLY
 70
     0
  9
$TDCREATE
 40
2455022.720692847
  9
$TDUPDATE
 40
2456943.746418461
  9
$TDINDWG
 40
0.0057688657
  9
$TDUSRTIMER
 40
2456943.662751887
  9
$USRTIMER
 70
     1
  9
$ANGBASE
 50
0.0
  9
$ANGDIR
 70
     0
  9
$PDMODE
 70
     0
  9
$PDSIZE
 40
0.0
  9
$PLINEWID
 40
0.0
  9
$COORDS
 70
     1
  9
$SPLFRAME
 70
     0
  9
$SPLINETYPE
 70
     6
  9
$SPLINESEGS
 70
     8
  9
$ATTDIA
 70
     0
  9
$ATTREQ
 70
     1
  9
$HANDLING
 70
     1
  9
$HANDSEED
  5
138
  9
$SURFTAB1
 70
     6
  9
$SURFTAB2
 70
     6
  9
$SURFTYPE
 70
     6
  9
$SURFU
 70
     6
  9
$SURFV
 70
     6
  9
$UCSNAME
  2

  9
$UCSORG
 10
0.0
 20
0.0
 30
0.0
  9
$UCSXDIR
 10
1.0
 20
0.0
 30
0.0
  9
$UCSYDIR
 10
0.0
 20
1.0
 30
0.0
  9
$PUCSNAME
  2

  9
$PUCSORG
 10
0.0
 20
0.0
 30
0.0
  9
$PUCSXDIR
 10
1.0
 20
0.0
 30
0.0
  9
$PUCSYDIR
 10
0.0
 20
1.0
 30
0.0
  9
$USERI1
 70
     0
  9
$USERI2
 70
     0
  9
$USERI3
 70
     0
  9
$USERI4
 70
     0
  9
$USERI5
 70
     0
  9
$USERR1
 40
0.0
  9
$USERR2
 40
0.0
  9
$USERR3
 40
0.0
  9
$USERR4
 40
0.0
  9
$USERR5
 40
0.0
  9
$WORLDVIEW
 70
     1
  9
$SHADEDGE
 70
     3
  9
$SHADEDIF
 70
    70
  9
$TILEMODE
 70
     1
  9
$MAXACTVP
 70
    64
  9
$PLIMCHECK
 70
     0
  9
$PEXTMIN
 10
1.000000000000000E+20
 20
1.000000000000000E+20
 30
1.000000000000000E+20
  9
$PEXTMAX
 10
-1.000000000000000E+20
 20
-1.000000000000000E+20
 30
-1.000000000000000E+20
  9
$PLIMMIN
 10
0.0
 20
0.0
  9
$PLIMMAX
 10
0.0
 20
0.0
  9
$UNITMODE
 70
     0
  9
$VISRETAIN
 70
     1
  9
$PLINEGEN
 70
     0
  9
$PSLTSCALE
 70
     1
  0
ENDSEC
  0
SECTION
  2
TABLES
  0
TABLE
  2
VPORT
 70
     1
  0
VPORT
  2
*ACTIVE
 70
     0
 10
0.0
 20
0.0
 11
1.0
 21
1.0
 12
222.5153982736093
 22
224.3027501090443
 13
0.0
 23
0.0
 14
10.0
 24
10.0
 15
10.0
 25
10.0
 16
0.0
 26
0.0
 36
1.0
 17
-134.1869158878503
 27
0.0
 37
0.0
 40
269.2444563645001
 41
2.047169811320755
 42
50.0
 43
0.0
 44
0.0
 50
0.0
 51
0.0
 71
    16
 72
  1000
 73
     1
 74
     3
 75
     0
 76
     0
 77
     0
 78
     0
  0
ENDTAB
  0
TABLE
  2
LTYPE
 70
     1
  0
LTYPE
  2
CONTINUOUS
 70
     0
  3
Solid line
 72
    65
 73
     0
 40
0.0
  0
ENDTAB
  0
TABLE
  2
LAYER
 70
     2
  0
LAYER
  2
0
 70
     0
 62
     7
  6
CONTINUOUS
  0
LAYER
  2
BASE
 70
     0
 62
     3
  6
CONTINUOUS
  0
ENDTAB
  0
TABLE
  2
STYLE
 70
     1
  0
STYLE
  2
STANDARD
 70
     0
 40
0.0
 41
1.0
 50
0.0
 71
     0
 42
2.5
  3
arial.ttf
  4

  0
ENDTAB
  0
TABLE
  2
VIEW
 70
     0
  0
ENDTAB
  0
TABLE
  2
UCS
 70
     0
  0
ENDTAB
  0
TABLE
  2
APPID
 70
     2
  0
APPID
  2
ACAD
 70
     0
  0
APPID
  2
ACAECLAYERSTANDARD
 70
     0
  0
ENDTAB
  0
TABLE
  2
DIMSTYLE
 70
     1
  0
DIMSTYLE
  2
ISO-25
 70
     0
  3

  4

  5

  6

  7

 40
1.0
 41
2.5
 42
0.625
 43
3.75
 44
1.25
 45
0.0
 46
0.0
 47
0.0
 48
0.0
140
2.5
141
2.5
142
0.0
143
0.03937007874016
144
1.0
145
0.0
146
1.0
147
0.625
 71
     0
 72
     0
 73
     0
 74
     0
 75
     0
 76
     0
 77
     1
 78
     8
170
     0
171
     3
172
     1
173
     0
174
     0
175
     0
176
     0
177
     0
178
     0
  0
ENDTAB
  0
ENDSEC
  0
SECTION
  2
BLOCKS
  0
BLOCK
  8
0
  2
$MODEL_SPACE
 70
     0
 10
0.0
 20
0.0
 30
0.0
  3
$MODEL_SPACE
  1

  0
ENDBLK
  5
21
  8
0
  0
BLOCK
 67
     1
  8
0
  2
$PAPER_SPACE
 70
     0
 10
0.0
 20
0.0
 30
0.0
  3
$PAPER_SPACE
  1

  0
ENDBLK
  5
1D
 67
     1
  8
0
  0
ENDSEC
  0
SECTION
  2
ENTITIES
  0
CIRCLE
  5
109
  8
BASE
 10
-7.862216431757332
 20
187.3677358490567
 30
0.0
 40
9.55
  0
CIRCLE
  5
10A
  8
BASE
 10
-155.5122164317574
 20
222.3677358490568
 30
0.0
 40
6.375
  0
ARC
  5
10B
  8
BASE
 10
-75.58286794218677
 20
234.5646483764737
 30
0.0
 40
57.28309484601846
 50
198.6039062339163
 51
314.7247924703042
  0
LINE
  5
10C
  8
BASE
 10
20.30778356824274
 20
187.3677358490567
 30
0.0
 11
20.30778356824274
 21
147.8377358490567
 31
0.0
  0
ARC
  5
10D
  8
BASE
 10
-102.5706013946396
 20
222.2807446716807
 30
0.0
 40
79.29166275630378
 50
179.9371405751232
 51
249.8593827299465
  0
ARC
  5
10E
  8
BASE
 10
-155.5122164317574
 20
222.3677358490568
 30
0.0
 40
26.34999999999994
 50
346.6643493521105
 51
180.0
  0
ARC
  5
10F
  8
BASE
 10
-7.862216431757332
 20
187.3677358490568
 30
0.0
 40
28.17000000000002
 50
359.9999999999997
 51
166.6643493521108
  0
LINE
  5
110
  8
BASE
 10
20.30778356824274
 20
147.8377358490567
 30
0.0
 11
10.30778356824274
 21
147.8377358490567
 31
0.0
  0
LINE
  5
111
  8
BASE
 10
10.30778356824274
 20
147.8377358490567
 30
0.0
 11
10.30778356824274
 21
141.8377358490567
 31
0.0
  0
LINE
  5
112
  8
BASE
 10
10.30778356824274
 20
141.8377358490567
 30
0.0
 11
-39.69221643175726
 21
141.8377358490567
 31
0.0
  0
LINE
  5
113
  8
BASE
 10
-39.69221643175726
 20
141.8377358490567
 30
0.0
 11
-39.69221643175726
 21
147.8377358490567
 31
0.0
  0
CIRCLE
  5
123
  8
BASE
 10
330.3492289224614
 20
187.3677358490567
 30
0.0
 40
9.55
  0
CIRCLE
  5
124
  8
BASE
 10
182.6992289224613
 20
222.3677358490568
 30
0.0
 40
6.375
  0
ARC
  5
125
  8
BASE
 10
262.6285774120319
 20
234.5646483764737
 30
0.0
 40
57.28309484601846
 50
198.6039062339162
 51
314.7247924703042
  0
LINE
  5
126
  8
BASE
 10
358.5192289224614
 20
187.3677358490567
 30
0.0
 11
358.5192289224614
 21
147.8377358490567
 31
0.0
  0
ARC
  5
127
  8
BASE
 10
235.6408439595791
 20
222.2807446716807
 30
0.0
 40
79.29166275630378
 50
179.9371405751232
 51
249.8593827299465
  0
ARC
  5
128
  8
BASE
 10
182.6992289224613
 20
222.3677358490568
 30
0.0
 40
26.34999999999994
 50
346.6643493521105
 51
180.0
  0
ARC
  5
129
  8
BASE
 10
330.3492289224614
 20
187.3677358490568
 30
0.0
 40
28.17000000000002
 50
359.9999999999997
 51
166.6643493521108
  0
LINE
  5
12A
  8
BASE
 10
358.5192289224614
 20
147.8377358490567
 30
0.0
 11
348.5192289224614
 21
147.8377358490567
 31
0.0
  0
LINE
  5
12B
  8
BASE
 10
348.5192289224614
 20
147.8377358490567
 30
0.0
 11
348.5192289224614
 21
141.8377358490567
 31
0.0
  0
LINE
  5
12C
  8
BASE
 10
348.5192289224614
 20
141.8377358490567
 30
0.0
 11
298.5192289224614
 21
141.8377358490567
 31
0.0
  0
LINE
  5
12D
  8
BASE
 10
298.5192289224614
 20
141.8377358490567
 30
0.0
 11
298.5192289224614
 21
147.8377358490567
 31
0.0
  0
LINE
  5
12E
  8
BASE
 10
298.5192289224614
 20
147.8377358490567
 30
0.0
 11
208.3387154694023
 21
147.8377358490566
 31
0.0
  0
LINE
  5
12F
  8
BASE
 10
-39.69221643175726
 20
141.8377358490567
 30
0.0
 11
-39.69221643175726
 21
147.8377358490567
 31
0.0
  0
LINE
  5
130
  8
BASE
 10
-39.69221643175726
 20
147.8377358490567
 30
0.0
 11
-79.69221643175726
 21
147.8377358490567
 31
0.0
  0
LINE
  5
131
  8
BASE
 10
-79.69221643175726
 20
147.8377358490567
 30
0.0
 11
-79.69221643175726
 21
141.8377358490567
 31
0.0
  0
LINE
  5
132
  8
BASE
 10
-79.69221643175726
 20
141.8377358490567
 30
0.0
 11
-119.6922164317573
 21
141.8377358490567
 31
0.0
  0
LINE
  5
133
  8
BASE
 10
-119.6922164317573
 20
141.8377358490567
 30
0.0
 11
-119.6922164317573
 21
147.8377358490567
 31
0.0
  0
LINE
  5
134
  8
BASE
 10
-119.6922164317573
 20
147.8377358490567
 30
0.0
 11
-129.8727298848164
 21
147.8377358490566
 31
0.0
  0
TEXT
  5
136
  8
0
 10
-168.7548422877906
 20
271.592764369032
 30
0.0
 40
35.0
  1
4 pièces
  0
TEXT
  5
137
  8
0
 10
170.5377085326998
 20
267.2613701032384
 30
0.0
 40
35.0
  1
2 pièces
  0
ENDSEC
  0
EOF
