  0
SECTION
  2
HEADER
  9
$ACADVER
  1
AC1009
  9
$DWGCODEPAGE
  3
ansi_1252
  9
$INSBASE
 10
0.0
 20
0.0
 30
0.0
  9
$EXTMIN
 10
-0.1641509433962121
 20
0.7188679245283236
 30
0.0
  9
$EXTMAX
 10
643.936244838118
 20
405.5740010248488
 30
0.0
  9
$LIMMIN
 10
0.0
 20
0.0
  9
$LIMMAX
 10
420.0
 20
297.0
  9
$ORTHOMODE
 70
     0
  9
$REGENMODE
 70
     1
  9
$FILLMODE
 70
     1
  9
$QTEXTMODE
 70
     0
  9
$MIRRTEXT
 70
     0
  9
$DRAGMODE
 70
     2
  9
$LTSCALE
 40
1.0
  9
$OSMODE
 70
   511
  9
$ATTMODE
 70
     1
  9
$TEXTSIZE
 40
2.5
  9
$TRACEWID
 40
1.0
  9
$TEXTSTYLE
  7
STANDARD
  9
$CLAYER
  8
0
  9
$CELTYPE
  6
BYLAYER
  9
$CECOLOR
 62
   256
  9
$DIMSCALE
 40
1.0
  9
$DIMASZ
 40
2.5
  9
$DIMEXO
 40
0.625
  9
$DIMDLI
 40
3.75
  9
$DIMRND
 40
0.0
  9
$DIMDLE
 40
0.0
  9
$DIMEXE
 40
1.25
  9
$DIMTP
 40
0.0
  9
$DIMTM
 40
0.0
  9
$DIMTXT
 40
2.5
  9
$DIMCEN
 40
2.5
  9
$DIMTSZ
 40
0.0
  9
$DIMTOL
 70
     0
  9
$DIMLIM
 70
     0
  9
$DIMTIH
 70
     0
  9
$DIMTOH
 70
     0
  9
$DIMSE1
 70
     0
  9
$DIMSE2
 70
     0
  9
$DIMTAD
 70
     1
  9
$DIMZIN
 70
     8
  9
$DIMBLK
  1

  9
$DIMASO
 70
     1
  9
$DIMSHO
 70
     1
  9
$DIMPOST
  1

  9
$DIMAPOST
  1

  9
$DIMALT
 70
     0
  9
$DIMALTD
 70
     3
  9
$DIMALTF
 40
0.03937007874016
  9
$DIMLFAC
 40
1.0
  9
$DIMTOFL
 70
     1
  9
$DIMTVP
 40
0.0
  9
$DIMTIX
 70
     0
  9
$DIMSOXD
 70
     0
  9
$DIMSAH
 70
     0
  9
$DIMBLK1
  1

  9
$DIMBLK2
  1

  9
$DIMSTYLE
  2
ISO-25
  9
$DIMCLRD
 70
     0
  9
$DIMCLRE
 70
     0
  9
$DIMCLRT
 70
     0
  9
$DIMTFAC
 40
1.0
  9
$DIMGAP
 40
0.625
  9
$LUNITS
 70
     2
  9
$LUPREC
 70
     3
  9
$SKETCHINC
 40
1.0
  9
$FILLETRAD
 40
10.0
  9
$AUNITS
 70
     0
  9
$AUPREC
 70
     0
  9
$MENU
  1
.
  9
$ELEVATION
 40
0.0
  9
$PELEVATION
 40
0.0
  9
$THICKNESS
 40
0.0
  9
$LIMCHECK
 70
     0
  9
$CHAMFERA
 40
10.0
  9
$CHAMFERB
 40
10.0
  9
$SKPOLY
 70
     0
  9
$TDCREATE
 40
2455022.720692847
  9
$TDUPDATE
 40
2456943.746638901
  9
$TDINDWG
 40
0.0033315741
  9
$TDUSRTIMER
 40
2456943.663140405
  9
$USRTIMER
 70
     1
  9
$ANGBASE
 50
0.0
  9
$ANGDIR
 70
     0
  9
$PDMODE
 70
     0
  9
$PDSIZE
 40
0.0
  9
$PLINEWID
 40
0.0
  9
$COORDS
 70
     1
  9
$SPLFRAME
 70
     0
  9
$SPLINETYPE
 70
     6
  9
$SPLINESEGS
 70
     8
  9
$ATTDIA
 70
     0
  9
$ATTREQ
 70
     1
  9
$HANDLING
 70
     1
  9
$HANDSEED
  5
127
  9
$SURFTAB1
 70
     6
  9
$SURFTAB2
 70
     6
  9
$SURFTYPE
 70
     6
  9
$SURFU
 70
     6
  9
$SURFV
 70
     6
  9
$UCSNAME
  2

  9
$UCSORG
 10
0.0
 20
0.0
 30
0.0
  9
$UCSXDIR
 10
1.0
 20
0.0
 30
0.0
  9
$UCSYDIR
 10
0.0
 20
1.0
 30
0.0
  9
$PUCSNAME
  2

  9
$PUCSORG
 10
0.0
 20
0.0
 30
0.0
  9
$PUCSXDIR
 10
1.0
 20
0.0
 30
0.0
  9
$PUCSYDIR
 10
0.0
 20
1.0
 30
0.0
  9
$USERI1
 70
     0
  9
$USERI2
 70
     0
  9
$USERI3
 70
     0
  9
$USERI4
 70
     0
  9
$USERI5
 70
     0
  9
$USERR1
 40
0.0
  9
$USERR2
 40
0.0
  9
$USERR3
 40
0.0
  9
$USERR4
 40
0.0
  9
$USERR5
 40
0.0
  9
$WORLDVIEW
 70
     1
  9
$SHADEDGE
 70
     3
  9
$SHADEDIF
 70
    70
  9
$TILEMODE
 70
     1
  9
$MAXACTVP
 70
    64
  9
$PLIMCHECK
 70
     0
  9
$PEXTMIN
 10
1.000000000000000E+20
 20
1.000000000000000E+20
 30
1.000000000000000E+20
  9
$PEXTMAX
 10
-1.000000000000000E+20
 20
-1.000000000000000E+20
 30
-1.000000000000000E+20
  9
$PLIMMIN
 10
0.0
 20
0.0
  9
$PLIMMAX
 10
0.0
 20
0.0
  9
$UNITMODE
 70
     0
  9
$VISRETAIN
 70
     1
  9
$PLINEGEN
 70
     0
  9
$PSLTSCALE
 70
     1
  0
ENDSEC
  0
SECTION
  2
TABLES
  0
TABLE
  2
VPORT
 70
     1
  0
VPORT
  2
*ACTIVE
 70
     0
 10
0.0
 20
0.0
 11
1.0
 21
1.0
 12
456.0729628352112
 22
203.1464344746886
 13
0.0
 23
0.0
 14
10.0
 24
10.0
 15
10.0
 25
10.0
 16
0.0
 26
0.0
 36
1.0
 17
-134.1869158878504
 27
0.0
 37
0.0
 40
412.9522357623269
 41
2.047169811320755
 42
50.0
 43
0.0
 44
0.0
 50
0.0
 51
0.0
 71
    16
 72
  1000
 73
     1
 74
     3
 75
     0
 76
     0
 77
     0
 78
     0
  0
ENDTAB
  0
TABLE
  2
LTYPE
 70
     1
  0
LTYPE
  2
CONTINUOUS
 70
     0
  3
Solid line
 72
    65
 73
     0
 40
0.0
  0
ENDTAB
  0
TABLE
  2
LAYER
 70
     3
  0
LAYER
  2
0
 70
     0
 62
     7
  6
CONTINUOUS
  0
LAYER
  2
BASE
 70
     0
 62
     3
  6
CONTINUOUS
  0
LAYER
  2
MONTANT
 70
     0
 62
   207
  6
CONTINUOUS
  0
ENDTAB
  0
TABLE
  2
STYLE
 70
     1
  0
STYLE
  2
STANDARD
 70
     0
 40
0.0
 41
1.0
 50
0.0
 71
     0
 42
2.5
  3
arial.ttf
  4

  0
ENDTAB
  0
TABLE
  2
VIEW
 70
     0
  0
ENDTAB
  0
TABLE
  2
UCS
 70
     0
  0
ENDTAB
  0
TABLE
  2
APPID
 70
     2
  0
APPID
  2
ACAD
 70
     0
  0
APPID
  2
ACAECLAYERSTANDARD
 70
     0
  0
ENDTAB
  0
TABLE
  2
DIMSTYLE
 70
     1
  0
DIMSTYLE
  2
ISO-25
 70
     0
  3

  4

  5

  6

  7

 40
1.0
 41
2.5
 42
0.625
 43
3.75
 44
1.25
 45
0.0
 46
0.0
 47
0.0
 48
0.0
140
2.5
141
2.5
142
0.0
143
0.03937007874016
144
1.0
145
0.0
146
1.0
147
0.625
 71
     0
 72
     0
 73
     0
 74
     0
 75
     0
 76
     0
 77
     1
 78
     8
170
     0
171
     3
172
     1
173
     0
174
     0
175
     0
176
     0
177
     0
178
     0
  0
ENDTAB
  0
ENDSEC
  0
SECTION
  2
BLOCKS
  0
BLOCK
  8
0
  2
$MODEL_SPACE
 70
     0
 10
0.0
 20
0.0
 30
0.0
  3
$MODEL_SPACE
  1

  0
ENDBLK
  5
21
  8
0
  0
BLOCK
 67
     1
  8
0
  2
$PAPER_SPACE
 70
     0
 10
0.0
 20
0.0
 30
0.0
  3
$PAPER_SPACE
  1

  0
ENDBLK
  5
1D
 67
     1
  8
0
  0
ENDSEC
  0
SECTION
  2
ENTITIES
  0
CIRCLE
  5
102
  8
MONTANT
 10
544.2502959732369
 20
375.5740010248488
 30
0.0
 40
6.35
  0
LINE
  5
103
  8
MONTANT
 10
49.13510353794399
 20
3.773112004878016
 30
0.0
 11
631.9148931954851
 21
297.8842864665924
 31
0.0
  0
ARC
  5
104
  8
MONTANT
 10
544.2502959732369
 20
375.5740010248487
 30
0.0
 40
30.00000000000009
 50
45.56328624803522
 51
153.4197814568292
  0
ARC
  5
105
  8
MONTANT
 10
608.9362448381178
 20
324.284697820745
 30
0.0
 40
35.00000000000017
 50
311.0359781797852
 51
63.41978145682919
  0
CIRCLE
  5
106
  8
MONTANT
 10
544.2502959732369
 20
375.5740010248488
 30
0.0
 40
6.35
  0
LINE
  5
107
  8
MONTANT
 10
636.3506529208398
 20
346.2660729144526
 30
0.0
 11
557.6738065638463
 21
402.403264216815
 31
0.0
  0
ARC
  5
108
  8
MONTANT
 10
-522.3927813241245
 20
1450.80580284364
 30
0.0
 40
1486.152621814234
 50
291.3174110546342
 51
314.4003942461442
  0
CIRCLE
  5
109
  8
MONTANT
 10
608.9362448381178
 20
324.284697820745
 30
0.0
 40
20.6
  0
CIRCLE
  5
10A
  8
MONTANT
 10
300.913238048814
 20
200.8067973617825
 30
0.0
 40
3.0
  0
CIRCLE
  5
10B
  8
MONTANT
 10
351.8849708511929
 20
235.2456748762403
 30
0.0
 40
3.0
  0
CIRCLE
  5
10C
  8
MONTANT
 10
400.5989248311924
 20
271.1572667885031
 30
0.0
 40
3.0
  0
CIRCLE
  5
10D
  8
MONTANT
 10
506.8707845848106
 20
326.9826823649171
 30
0.0
 40
3.0
  0
CIRCLE
  5
10E
  8
MONTANT
 10
560.0010777284456
 20
354.8924291343495
 30
0.0
 40
3.0
  0
CIRCLE
  5
10F
  8
MONTANT
 10
410.4907895681619
 20
195.7362871842357
 30
0.0
 40
3.0
  0
CIRCLE
  5
110
  8
MONTANT
 10
464.1557810698131
 20
222.5703827927653
 30
0.0
 40
3.0
  0
CIRCLE
  5
111
  8
MONTANT
 10
517.8207725714643
 20
249.404478401295
 30
0.0
 40
3.0
  0
CIRCLE
  5
112
  8
MONTANT
 10
571.4857640731154
 20
276.2385740098246
 30
0.0
 40
3.0
  0
CIRCLE
  5
113
  8
MONTANT
 10
608.9362448381178
 20
294.9649308639489
 30
0.0
 40
2.0
  0
CIRCLE
  5
114
  8
MONTANT
 10
453.7372036601046
 20
299.0712084991014
 30
0.0
 40
3.0
  0
CIRCLE
  5
115
  8
MONTANT
 10
633.0301541031556
 20
338.195322820745
 30
0.0
 40
2.0
  0
CIRCLE
  5
116
  8
MONTANT
 10
595.0256198381178
 20
348.3786070857828
 30
0.0
 40
2.0
  0
ARC
  5
117
  8
MONTANT
 10
34.83584905660379
 20
35.71886792452833
 30
0.0
 40
35.0
 50
118.9864998664118
 51
294.1137886020885
  0
CIRCLE
  5
118
  8
MONTANT
 10
34.83584905660379
 20
35.71886792452844
 30
0.0
 40
20.6
  0
CIRCLE
  5
119
  8
MONTANT
 10
91.04040085612095
 20
85.71866322234413
 30
0.0
 40
3.0
  0
CIRCLE
  5
11A
  8
MONTANT
 10
144.7731780647994
 20
112.819317377519
 30
0.0
 40
3.0
  0
CIRCLE
  5
11B
  8
MONTANT
 10
198.249874154142
 20
140.1884096081716
 30
0.0
 40
3.0
  0
CIRCLE
  5
11C
  8
MONTANT
 10
250.6403055013198
 20
169.7338752813508
 30
0.0
 40
3.0
  0
CIRCLE
  5
11D
  8
MONTANT
 10
88.50084055825496
 20
34.73171353305801
 30
0.0
 40
3.0
  0
CIRCLE
  5
11E
  8
MONTANT
 10
142.1658320599061
 20
61.56580914158755
 30
0.0
 40
3.0
  0
CIRCLE
  5
11F
  8
MONTANT
 10
195.8308235615573
 20
88.3999047501172
 30
0.0
 40
3.0
  0
CIRCLE
  5
120
  8
MONTANT
 10
249.4958150632084
 20
115.2340003586469
 30
0.0
 40
3.0
  0
CIRCLE
  5
121
  8
MONTANT
 10
7.014599056603828
 20
35.71886792452833
 30
0.0
 40
2.0
  0
CIRCLE
  5
122
  8
MONTANT
 10
34.83584905660373
 20
63.5401179245284
 30
0.0
 40
2.0
  0
CIRCLE
  5
123
  8
MONTANT
 10
34.83584905660391
 20
7.897617924528475
 30
0.0
 40
2.0
  0
CIRCLE
  5
124
  8
MONTANT
 10
303.1608065648596
 20
142.0680959671765
 30
0.0
 40
3.0
  0
CIRCLE
  5
125
  8
MONTANT
 10
356.8257980665107
 20
168.9021915757061
 30
0.0
 40
3.0
  0
TEXT
  5
126
  8
0
 10
-42.36899120148411
 20
301.839421638012
 30
0.0
 40
46.1000137407629
  1
4 pièces
  0
ENDSEC
  0
EOF
