  0
SECTION
  2
HEADER
  9
$ACADVER
  1
AC1009
  9
$DWGCODEPAGE
  3
ansi_1252
  9
$INSBASE
 10
0.0
 20
0.0
 30
0.0
  9
$EXTMIN
 10
-163.9373610880029
 20
431.5870092707404
 30
0.0
  9
$EXTMAX
 10
715.0263878828437
 20
637.5870092707405
 30
0.0
  9
$LIMMIN
 10
0.0
 20
0.0
  9
$LIMMAX
 10
420.0
 20
297.0
  9
$ORTHOMODE
 70
     0
  9
$REGENMODE
 70
     1
  9
$FILLMODE
 70
     1
  9
$QTEXTMODE
 70
     0
  9
$MIRRTEXT
 70
     0
  9
$DRAGMODE
 70
     2
  9
$LTSCALE
 40
1.0
  9
$OSMODE
 70
   511
  9
$ATTMODE
 70
     1
  9
$TEXTSIZE
 40
2.5
  9
$TRACEWID
 40
1.0
  9
$TEXTSTYLE
  7
STANDARD
  9
$CLAYER
  8
0
  9
$CELTYPE
  6
BYLAYER
  9
$CECOLOR
 62
   256
  9
$DIMSCALE
 40
1.0
  9
$DIMASZ
 40
2.5
  9
$DIMEXO
 40
0.625
  9
$DIMDLI
 40
3.75
  9
$DIMRND
 40
0.0
  9
$DIMDLE
 40
0.0
  9
$DIMEXE
 40
1.25
  9
$DIMTP
 40
0.0
  9
$DIMTM
 40
0.0
  9
$DIMTXT
 40
2.5
  9
$DIMCEN
 40
2.5
  9
$DIMTSZ
 40
0.0
  9
$DIMTOL
 70
     0
  9
$DIMLIM
 70
     0
  9
$DIMTIH
 70
     0
  9
$DIMTOH
 70
     0
  9
$DIMSE1
 70
     0
  9
$DIMSE2
 70
     0
  9
$DIMTAD
 70
     1
  9
$DIMZIN
 70
     8
  9
$DIMBLK
  1

  9
$DIMASO
 70
     1
  9
$DIMSHO
 70
     1
  9
$DIMPOST
  1

  9
$DIMAPOST
  1

  9
$DIMALT
 70
     0
  9
$DIMALTD
 70
     3
  9
$DIMALTF
 40
0.03937007874016
  9
$DIMLFAC
 40
1.0
  9
$DIMTOFL
 70
     1
  9
$DIMTVP
 40
0.0
  9
$DIMTIX
 70
     0
  9
$DIMSOXD
 70
     0
  9
$DIMSAH
 70
     0
  9
$DIMBLK1
  1

  9
$DIMBLK2
  1

  9
$DIMSTYLE
  2
ISO-25
  9
$DIMCLRD
 70
     0
  9
$DIMCLRE
 70
     0
  9
$DIMCLRT
 70
     0
  9
$DIMTFAC
 40
1.0
  9
$DIMGAP
 40
0.625
  9
$LUNITS
 70
     2
  9
$LUPREC
 70
     3
  9
$SKETCHINC
 40
1.0
  9
$FILLETRAD
 40
10.0
  9
$AUNITS
 70
     0
  9
$AUPREC
 70
     0
  9
$MENU
  1
.
  9
$ELEVATION
 40
0.0
  9
$PELEVATION
 40
0.0
  9
$THICKNESS
 40
0.0
  9
$LIMCHECK
 70
     0
  9
$CHAMFERA
 40
10.0
  9
$CHAMFERB
 40
10.0
  9
$SKPOLY
 70
     0
  9
$TDCREATE
 40
2455022.720692847
  9
$TDUPDATE
 40
2456943.753405336
  9
$TDINDWG
 40
0.007774294
  9
$TDUSRTIMER
 40
2456943.669864514
  9
$USRTIMER
 70
     1
  9
$ANGBASE
 50
0.0
  9
$ANGDIR
 70
     0
  9
$PDMODE
 70
     0
  9
$PDSIZE
 40
0.0
  9
$PLINEWID
 40
0.0
  9
$COORDS
 70
     1
  9
$SPLFRAME
 70
     0
  9
$SPLINETYPE
 70
     6
  9
$SPLINESEGS
 70
     8
  9
$ATTDIA
 70
     0
  9
$ATTREQ
 70
     1
  9
$HANDLING
 70
     1
  9
$HANDSEED
  5
1E8
  9
$SURFTAB1
 70
     6
  9
$SURFTAB2
 70
     6
  9
$SURFTYPE
 70
     6
  9
$SURFU
 70
     6
  9
$SURFV
 70
     6
  9
$UCSNAME
  2

  9
$UCSORG
 10
0.0
 20
0.0
 30
0.0
  9
$UCSXDIR
 10
1.0
 20
0.0
 30
0.0
  9
$UCSYDIR
 10
0.0
 20
1.0
 30
0.0
  9
$PUCSNAME
  2

  9
$PUCSORG
 10
0.0
 20
0.0
 30
0.0
  9
$PUCSXDIR
 10
1.0
 20
0.0
 30
0.0
  9
$PUCSYDIR
 10
0.0
 20
1.0
 30
0.0
  9
$USERI1
 70
     0
  9
$USERI2
 70
     0
  9
$USERI3
 70
     0
  9
$USERI4
 70
     0
  9
$USERI5
 70
     0
  9
$USERR1
 40
0.0
  9
$USERR2
 40
0.0
  9
$USERR3
 40
0.0
  9
$USERR4
 40
0.0
  9
$USERR5
 40
0.0
  9
$WORLDVIEW
 70
     1
  9
$SHADEDGE
 70
     3
  9
$SHADEDIF
 70
    70
  9
$TILEMODE
 70
     1
  9
$MAXACTVP
 70
    64
  9
$PLIMCHECK
 70
     0
  9
$PEXTMIN
 10
1.000000000000000E+20
 20
1.000000000000000E+20
 30
1.000000000000000E+20
  9
$PEXTMAX
 10
-1.000000000000000E+20
 20
-1.000000000000000E+20
 30
-1.000000000000000E+20
  9
$PLIMMIN
 10
0.0
 20
0.0
  9
$PLIMMAX
 10
0.0
 20
0.0
  9
$UNITMODE
 70
     0
  9
$VISRETAIN
 70
     1
  9
$PLINEGEN
 70
     0
  9
$PSLTSCALE
 70
     1
  0
ENDSEC
  0
SECTION
  2
TABLES
  0
TABLE
  2
VPORT
 70
     1
  0
VPORT
  2
*ACTIVE
 70
     0
 10
0.0
 20
0.0
 11
1.0
 21
1.0
 12
409.7314292852707
 22
534.5870092707405
 13
0.0
 23
0.0
 14
10.0
 24
10.0
 15
10.0
 25
10.0
 16
0.0
 26
0.0
 36
1.0
 17
-134.1869158878504
 27
0.0
 37
0.0
 40
437.942675293677
 41
2.047169811320755
 42
50.0
 43
0.0
 44
0.0
 50
0.0
 51
0.0
 71
    16
 72
  1000
 73
     1
 74
     3
 75
     0
 76
     0
 77
     0
 78
     0
  0
ENDTAB
  0
TABLE
  2
LTYPE
 70
     1
  0
LTYPE
  2
CONTINUOUS
 70
     0
  3
Solid line
 72
    65
 73
     0
 40
0.0
  0
ENDTAB
  0
TABLE
  2
LAYER
 70
     2
  0
LAYER
  2
0
 70
     0
 62
     7
  6
CONTINUOUS
  0
LAYER
  2
BASE
 70
     0
 62
     3
  6
CONTINUOUS
  0
ENDTAB
  0
TABLE
  2
STYLE
 70
     1
  0
STYLE
  2
STANDARD
 70
     0
 40
0.0
 41
1.0
 50
0.0
 71
     0
 42
2.5
  3
arial.ttf
  4

  0
ENDTAB
  0
TABLE
  2
VIEW
 70
     0
  0
ENDTAB
  0
TABLE
  2
UCS
 70
     0
  0
ENDTAB
  0
TABLE
  2
APPID
 70
     2
  0
APPID
  2
ACAD
 70
     0
  0
APPID
  2
ACAECLAYERSTANDARD
 70
     0
  0
ENDTAB
  0
TABLE
  2
DIMSTYLE
 70
     1
  0
DIMSTYLE
  2
ISO-25
 70
     0
  3

  4

  5

  6

  7

 40
1.0
 41
2.5
 42
0.625
 43
3.75
 44
1.25
 45
0.0
 46
0.0
 47
0.0
 48
0.0
140
2.5
141
2.5
142
0.0
143
0.03937007874016
144
1.0
145
0.0
146
1.0
147
0.625
 71
     0
 72
     0
 73
     0
 74
     0
 75
     0
 76
     0
 77
     1
 78
     8
170
     0
171
     3
172
     1
173
     0
174
     0
175
     0
176
     0
177
     0
178
     0
  0
ENDTAB
  0
ENDSEC
  0
SECTION
  2
BLOCKS
  0
BLOCK
  8
0
  2
$MODEL_SPACE
 70
     0
 10
0.0
 20
0.0
 30
0.0
  3
$MODEL_SPACE
  1

  0
ENDBLK
  5
21
  8
0
  0
BLOCK
 67
     1
  8
0
  2
$PAPER_SPACE
 70
     0
 10
0.0
 20
0.0
 30
0.0
  3
$PAPER_SPACE
  1

  0
ENDBLK
  5
1D
 67
     1
  8
0
  0
ENDSEC
  0
SECTION
  2
ENTITIES
  0
LINE
  5
153
  8
BASE
 10
60.01612131106677
 20
431.5870092707405
 30
0.0
 11
80.01612131106677
 21
431.5870092707405
 31
0.0
  0
LINE
  5
154
  8
BASE
 10
80.01612131106677
 20
431.5870092707405
 30
0.0
 11
80.01612131106677
 21
437.5870092707405
 31
0.0
  0
LINE
  5
155
  8
BASE
 10
80.01612131106677
 20
437.5870092707405
 30
0.0
 11
120.0161213110668
 21
437.5870092707405
 31
0.0
  0
LINE
  5
156
  8
BASE
 10
120.0161213110668
 20
437.5870092707405
 30
0.0
 11
120.0161213110668
 21
431.5870092707405
 31
0.0
  0
LINE
  5
157
  8
BASE
 10
120.0161213110668
 20
431.5870092707405
 30
0.0
 11
160.0161213110668
 21
431.5870092707405
 31
0.0
  0
LINE
  5
158
  8
BASE
 10
160.0161213110668
 20
431.5870092707405
 30
0.0
 11
160.0161213110668
 21
437.5870092707405
 31
0.0
  0
LINE
  5
159
  8
BASE
 10
160.0161213110668
 20
437.5870092707405
 30
0.0
 11
200.0161213110668
 21
437.5870092707405
 31
0.0
  0
LINE
  5
15A
  8
BASE
 10
200.0161213110668
 20
431.5870092707405
 30
0.0
 11
240.0161213110668
 21
431.5870092707405
 31
0.0
  0
LINE
  5
15B
  8
BASE
 10
240.0161213110668
 20
431.5870092707405
 30
0.0
 11
240.0161213110668
 21
437.5870092707405
 31
0.0
  0
LINE
  5
15C
  8
BASE
 10
240.0161213110668
 20
437.5870092707405
 30
0.0
 11
250.0161213110668
 21
437.5870092707405
 31
0.0
  0
LINE
  5
15D
  8
BASE
 10
60.01612131106677
 20
637.5870092707405
 30
0.0
 11
250.0161213110668
 21
637.5870092707405
 31
0.0
  0
LINE
  5
15E
  8
BASE
 10
-33.93736108800277
 20
431.5870092707405
 30
0.0
 11
-73.93736108800277
 21
431.5870092707405
 31
0.0
  0
LINE
  5
15F
  8
BASE
 10
-113.9373610880028
 20
431.5870092707404
 30
0.0
 11
-153.9373610880029
 21
431.5870092707404
 31
0.0
  0
LINE
  5
160
  8
BASE
 10
309.9739690022692
 20
437.5870092707405
 30
0.0
 11
347.9739690022691
 21
437.5870092707405
 31
0.0
  0
LINE
  5
161
  8
BASE
 10
347.9739690022691
 20
437.5870092707405
 30
0.0
 11
347.9739690022691
 21
431.5870092707405
 31
0.0
  0
LINE
  5
162
  8
BASE
 10
347.9739690022691
 20
431.5870092707405
 30
0.0
 11
387.9739690022691
 21
431.5870092707405
 31
0.0
  0
LINE
  5
163
  8
BASE
 10
387.9739690022691
 20
431.5870092707405
 30
0.0
 11
387.9739690022691
 21
437.5870092707405
 31
0.0
  0
LINE
  5
164
  8
BASE
 10
387.9739690022691
 20
437.5870092707405
 30
0.0
 11
427.9739690022691
 21
437.5870092707405
 31
0.0
  0
LINE
  5
165
  8
BASE
 10
427.9739690022691
 20
437.5870092707405
 30
0.0
 11
427.9739690022691
 21
431.5870092707405
 31
0.0
  0
LINE
  5
166
  8
BASE
 10
427.9739690022691
 20
431.5870092707405
 30
0.0
 11
467.9739690022692
 21
431.5870092707405
 31
0.0
  0
LINE
  5
167
  8
BASE
 10
467.9739690022692
 20
431.5870092707405
 30
0.0
 11
467.9739690022692
 21
437.5870092707405
 31
0.0
  0
LINE
  5
168
  8
BASE
 10
467.9739690022692
 20
437.5870092707405
 30
0.0
 11
475.9739690022693
 21
437.5870092707405
 31
0.0
  0
LINE
  5
169
  8
BASE
 10
475.9739690022693
 20
637.5870092707405
 30
0.0
 11
309.9739690022693
 21
637.5870092707405
 31
0.0
  0
LINE
  5
16A
  8
BASE
 10
60.01612131106677
 20
431.5870092707405
 30
0.0
 11
60.01612131106677
 21
477.4870092707405
 31
0.0
  0
LINE
  5
16B
  8
BASE
 10
60.01612131106677
 20
477.4870092707405
 30
0.0
 11
62.01612131106677
 21
477.4870092707405
 31
0.0
  0
LINE
  5
16C
  8
BASE
 10
62.01612131106677
 20
477.4870092707405
 30
0.0
 11
62.01612131106677
 21
517.6870092707405
 31
0.0
  0
LINE
  5
16D
  8
BASE
 10
62.01612131106677
 20
517.6870092707405
 30
0.0
 11
60.01612131106677
 21
517.6870092707405
 31
0.0
  0
LINE
  5
16E
  8
BASE
 10
60.01612131106677
 20
517.6870092707405
 30
0.0
 11
60.01612131106677
 21
557.4870092707405
 31
0.0
  0
LINE
  5
16F
  8
BASE
 10
60.01612131106677
 20
557.4870092707405
 30
0.0
 11
62.01612131106677
 21
557.4870092707405
 31
0.0
  0
LINE
  5
170
  8
BASE
 10
62.01612131106677
 20
557.4870092707405
 30
0.0
 11
62.01612131106677
 21
597.6870092707405
 31
0.0
  0
LINE
  5
171
  8
BASE
 10
62.01612131106677
 20
597.6870092707405
 30
0.0
 11
60.01612131106677
 21
597.6870092707405
 31
0.0
  0
LINE
  5
172
  8
BASE
 10
60.01612131106677
 20
597.6870092707405
 30
0.0
 11
60.01612131106677
 21
637.5870092707405
 31
0.0
  0
LINE
  5
173
  8
BASE
 10
250.0161213110668
 20
437.5870092707405
 30
0.0
 11
250.0161213110668
 21
477.4870092707405
 31
0.0
  0
LINE
  5
174
  8
BASE
 10
250.0161213110668
 20
477.4870092707405
 30
0.0
 11
248.0161213110668
 21
477.4870092707405
 31
0.0
  0
LINE
  5
175
  8
BASE
 10
248.0161213110668
 20
477.4870092707405
 30
0.0
 11
248.0161213110668
 21
517.6870092707405
 31
0.0
  0
LINE
  5
176
  8
BASE
 10
248.0161213110668
 20
517.6870092707405
 30
0.0
 11
250.0161213110668
 21
517.6870092707405
 31
0.0
  0
LINE
  5
177
  8
BASE
 10
250.0161213110668
 20
517.6870092707405
 30
0.0
 11
250.0161213110668
 21
557.4870092707405
 31
0.0
  0
LINE
  5
178
  8
BASE
 10
250.0161213110668
 20
557.4870092707405
 30
0.0
 11
248.0161213110668
 21
557.4870092707405
 31
0.0
  0
LINE
  5
179
  8
BASE
 10
248.0161213110668
 20
557.4870092707405
 30
0.0
 11
248.0161213110668
 21
597.6870092707405
 31
0.0
  0
LINE
  5
17A
  8
BASE
 10
248.0161213110668
 20
597.6870092707405
 30
0.0
 11
250.0161213110668
 21
597.6870092707405
 31
0.0
  0
LINE
  5
17B
  8
BASE
 10
250.0161213110668
 20
597.6870092707405
 30
0.0
 11
250.0161213110668
 21
637.5870092707405
 31
0.0
  0
LINE
  5
17C
  8
BASE
 10
309.9739690022692
 20
437.5870092707405
 30
0.0
 11
309.9739690022692
 21
477.5870092707405
 31
0.0
  0
LINE
  5
17D
  8
BASE
 10
309.9739690022692
 20
477.5870092707405
 30
0.0
 11
307.9739690022692
 21
477.5870092707405
 31
0.0
  0
LINE
  5
17E
  8
BASE
 10
307.9739690022692
 20
477.5870092707405
 30
0.0
 11
307.9739690022692
 21
517.5870092707405
 31
0.0
  0
LINE
  5
17F
  8
BASE
 10
307.9739690022692
 20
517.5870092707405
 30
0.0
 11
309.9739690022692
 21
517.5870092707405
 31
0.0
  0
LINE
  5
180
  8
BASE
 10
309.9739690022692
 20
517.5870092707405
 30
0.0
 11
309.9739690022693
 21
557.5870092707405
 31
0.0
  0
LINE
  5
181
  8
BASE
 10
309.9739690022693
 20
557.5870092707405
 30
0.0
 11
307.9739690022693
 21
557.5870092707405
 31
0.0
  0
LINE
  5
182
  8
BASE
 10
307.9739690022693
 20
557.5870092707405
 30
0.0
 11
307.9739690022693
 21
597.5870092707405
 31
0.0
  0
LINE
  5
183
  8
BASE
 10
307.9739690022693
 20
597.5870092707405
 30
0.0
 11
309.9739690022693
 21
597.5870092707405
 31
0.0
  0
LINE
  5
184
  8
BASE
 10
309.9739690022693
 20
597.5870092707405
 30
0.0
 11
309.9739690022693
 21
637.5870092707405
 31
0.0
  0
LINE
  5
185
  8
BASE
 10
309.9739690022693
 20
637.5870092707405
 30
0.0
 11
309.9739690022693
 21
637.5870092707405
 31
0.0
  0
LINE
  5
1A3
  8
BASE
 10
475.9739690022693
 20
437.5870092707405
 30
0.0
 11
475.9739690022693
 21
477.5870092707405
 31
0.0
  0
LINE
  5
1A4
  8
BASE
 10
475.9739690022693
 20
477.5870092707405
 30
0.0
 11
477.9739690022693
 21
477.5870092707405
 31
0.0
  0
LINE
  5
1A5
  8
BASE
 10
477.9739690022693
 20
477.5870092707405
 30
0.0
 11
477.9739690022693
 21
517.5870092707405
 31
0.0
  0
LINE
  5
1A6
  8
BASE
 10
477.9739690022693
 20
517.5870092707405
 30
0.0
 11
475.9739690022693
 21
517.5870092707405
 31
0.0
  0
LINE
  5
1A7
  8
BASE
 10
475.9739690022693
 20
517.5870092707405
 30
0.0
 11
475.9739690022693
 21
557.5870092707405
 31
0.0
  0
LINE
  5
1A8
  8
BASE
 10
475.9739690022693
 20
557.5870092707405
 30
0.0
 11
477.9739690022693
 21
557.5870092707405
 31
0.0
  0
LINE
  5
1A9
  8
BASE
 10
477.9739690022693
 20
557.5870092707405
 30
0.0
 11
477.9739690022693
 21
597.5870092707405
 31
0.0
  0
LINE
  5
1AA
  8
BASE
 10
477.9739690022693
 20
597.5870092707405
 30
0.0
 11
475.9739690022693
 21
597.5870092707405
 31
0.0
  0
LINE
  5
1AB
  8
BASE
 10
475.9739690022693
 20
597.5870092707405
 30
0.0
 11
475.9739690022693
 21
637.5870092707405
 31
0.0
  0
LINE
  5
1AC
  8
BASE
 10
200.0161213110668
 20
437.5870092707405
 30
0.0
 11
200.0161213110668
 21
431.5870092707405
 31
0.0
  0
LINE
  5
1AE
  8
BASE
 10
4.062638911997226
 20
437.5870092707405
 30
0.0
 11
-33.93736108800277
 21
437.5870092707405
 31
0.0
  0
LINE
  5
1AF
  8
BASE
 10
-33.93736108800277
 20
437.5870092707405
 30
0.0
 11
-33.93736108800277
 21
435.5870092707405
 31
0.0
  0
LINE
  5
1B0
  8
BASE
 10
-33.93736108800277
 20
437.5870092707405
 30
0.0
 11
-33.93736108800277
 21
431.5870092707405
 31
0.0
  0
LINE
  5
1B1
  8
BASE
 10
-73.93736108800277
 20
431.5870092707405
 30
0.0
 11
-73.93736108800277
 21
437.5870092707405
 31
0.0
  0
LINE
  5
1B2
  8
BASE
 10
-73.93736108800277
 20
437.5870092707405
 30
0.0
 11
-113.9373610880028
 21
437.5870092707405
 31
0.0
  0
LINE
  5
1B3
  8
BASE
 10
-113.9373610880028
 20
437.5870092707405
 30
0.0
 11
-113.9373610880028
 21
431.5870092707404
 31
0.0
  0
LINE
  5
1B4
  8
BASE
 10
-153.9373610880029
 20
431.5870092707404
 30
0.0
 11
-153.9373610880029
 21
437.5870092707404
 31
0.0
  0
LINE
  5
1B5
  8
BASE
 10
-153.9373610880029
 20
437.5870092707404
 30
0.0
 11
-161.9373610880029
 21
437.5870092707405
 31
0.0
  0
LINE
  5
1B6
  8
BASE
 10
4.062638911997226
 20
637.5870092707405
 30
0.0
 11
-161.9373610880028
 21
637.5870092707405
 31
0.0
  0
LINE
  5
1B7
  8
BASE
 10
4.062638911997226
 20
437.5870092707405
 30
0.0
 11
4.062638911997226
 21
477.5870092707405
 31
0.0
  0
LINE
  5
1B8
  8
BASE
 10
4.062638911997226
 20
477.5870092707405
 30
0.0
 11
6.062638911997226
 21
477.5870092707405
 31
0.0
  0
LINE
  5
1B9
  8
BASE
 10
6.062638911997226
 20
477.5870092707405
 30
0.0
 11
6.062638911997226
 21
517.5870092707405
 31
0.0
  0
LINE
  5
1BA
  8
BASE
 10
6.062638911997226
 20
517.5870092707405
 30
0.0
 11
4.062638911997226
 21
517.5870092707405
 31
0.0
  0
LINE
  5
1BB
  8
BASE
 10
4.062638911997226
 20
517.5870092707405
 30
0.0
 11
4.062638911997226
 21
557.5870092707405
 31
0.0
  0
LINE
  5
1BC
  8
BASE
 10
4.062638911997226
 20
557.5870092707405
 30
0.0
 11
6.062638911997226
 21
557.5870092707405
 31
0.0
  0
LINE
  5
1BD
  8
BASE
 10
6.062638911997226
 20
557.5870092707405
 30
0.0
 11
6.062638911997226
 21
597.5870092707405
 31
0.0
  0
LINE
  5
1BE
  8
BASE
 10
6.062638911997226
 20
597.5870092707405
 30
0.0
 11
4.062638911997226
 21
597.5870092707405
 31
0.0
  0
LINE
  5
1BF
  8
BASE
 10
4.062638911997226
 20
597.5870092707405
 30
0.0
 11
4.062638911997226
 21
637.5870092707405
 31
0.0
  0
LINE
  5
1C0
  8
BASE
 10
-161.9373610880029
 20
437.5870092707405
 30
0.0
 11
-161.9373610880029
 21
477.5870092707405
 31
0.0
  0
LINE
  5
1C1
  8
BASE
 10
-161.9373610880029
 20
477.5870092707405
 30
0.0
 11
-163.9373610880029
 21
477.5870092707405
 31
0.0
  0
LINE
  5
1C2
  8
BASE
 10
-163.9373610880029
 20
477.5870092707405
 30
0.0
 11
-163.9373610880028
 21
517.5870092707405
 31
0.0
  0
LINE
  5
1C3
  8
BASE
 10
-163.9373610880028
 20
517.5870092707405
 30
0.0
 11
-161.9373610880028
 21
517.5870092707405
 31
0.0
  0
LINE
  5
1C4
  8
BASE
 10
-161.9373610880028
 20
517.5870092707405
 30
0.0
 11
-161.9373610880028
 21
557.5870092707405
 31
0.0
  0
LINE
  5
1C5
  8
BASE
 10
-161.9373610880028
 20
557.5870092707405
 30
0.0
 11
-163.9373610880028
 21
557.5870092707405
 31
0.0
  0
LINE
  5
1C6
  8
BASE
 10
-163.9373610880028
 20
557.5870092707405
 30
0.0
 11
-163.9373610880028
 21
597.5870092707405
 31
0.0
  0
LINE
  5
1C7
  8
BASE
 10
-163.9373610880028
 20
597.5870092707405
 30
0.0
 11
-161.9373610880028
 21
597.5870092707405
 31
0.0
  0
LINE
  5
1C8
  8
BASE
 10
-161.9373610880028
 20
597.5870092707405
 30
0.0
 11
-161.9373610880028
 21
637.5870092707405
 31
0.0
  0
LINE
  5
1CA
  8
BASE
 10
715.0263878828437
 20
431.5870092707405
 30
0.0
 11
695.0263878828437
 21
431.5870092707405
 31
0.0
  0
LINE
  5
1CB
  8
BASE
 10
695.0263878828437
 20
431.5870092707405
 30
0.0
 11
695.0263878828437
 21
437.5870092707405
 31
0.0
  0
LINE
  5
1CC
  8
BASE
 10
695.0263878828437
 20
437.5870092707405
 30
0.0
 11
655.0263878828437
 21
437.5870092707405
 31
0.0
  0
LINE
  5
1CD
  8
BASE
 10
655.0263878828437
 20
437.5870092707405
 30
0.0
 11
655.0263878828437
 21
431.5870092707405
 31
0.0
  0
LINE
  5
1CE
  8
BASE
 10
655.0263878828437
 20
431.5870092707405
 30
0.0
 11
615.0263878828437
 21
431.5870092707405
 31
0.0
  0
LINE
  5
1CF
  8
BASE
 10
615.0263878828437
 20
431.5870092707405
 30
0.0
 11
615.0263878828437
 21
437.5870092707405
 31
0.0
  0
LINE
  5
1D0
  8
BASE
 10
615.0263878828437
 20
437.5870092707405
 30
0.0
 11
575.0263878828437
 21
437.5870092707405
 31
0.0
  0
LINE
  5
1D1
  8
BASE
 10
575.0263878828437
 20
431.5870092707405
 30
0.0
 11
535.0263878828437
 21
431.5870092707405
 31
0.0
  0
LINE
  5
1D2
  8
BASE
 10
535.0263878828437
 20
431.5870092707405
 30
0.0
 11
535.0263878828437
 21
437.5870092707405
 31
0.0
  0
LINE
  5
1D3
  8
BASE
 10
535.0263878828437
 20
437.5870092707405
 30
0.0
 11
525.0263878828437
 21
437.5870092707405
 31
0.0
  0
LINE
  5
1D4
  8
BASE
 10
715.0263878828437
 20
637.5870092707405
 30
0.0
 11
525.0263878828437
 21
637.5870092707405
 31
0.0
  0
LINE
  5
1D5
  8
BASE
 10
715.0263878828437
 20
431.5870092707405
 30
0.0
 11
715.0263878828437
 21
477.4870092707405
 31
0.0
  0
LINE
  5
1D6
  8
BASE
 10
715.0263878828437
 20
477.4870092707405
 30
0.0
 11
713.0263878828437
 21
477.4870092707405
 31
0.0
  0
LINE
  5
1D7
  8
BASE
 10
713.0263878828437
 20
477.4870092707405
 30
0.0
 11
713.0263878828437
 21
517.6870092707405
 31
0.0
  0
LINE
  5
1D8
  8
BASE
 10
713.0263878828437
 20
517.6870092707405
 30
0.0
 11
715.0263878828437
 21
517.6870092707405
 31
0.0
  0
LINE
  5
1D9
  8
BASE
 10
715.0263878828437
 20
517.6870092707405
 30
0.0
 11
715.0263878828437
 21
557.4870092707405
 31
0.0
  0
LINE
  5
1DA
  8
BASE
 10
715.0263878828437
 20
557.4870092707405
 30
0.0
 11
713.0263878828437
 21
557.4870092707405
 31
0.0
  0
LINE
  5
1DB
  8
BASE
 10
713.0263878828437
 20
557.4870092707405
 30
0.0
 11
713.0263878828437
 21
597.6870092707405
 31
0.0
  0
LINE
  5
1DC
  8
BASE
 10
713.0263878828437
 20
597.6870092707405
 30
0.0
 11
715.0263878828437
 21
597.6870092707405
 31
0.0
  0
LINE
  5
1DD
  8
BASE
 10
715.0263878828437
 20
597.6870092707405
 30
0.0
 11
715.0263878828437
 21
637.5870092707405
 31
0.0
  0
LINE
  5
1DE
  8
BASE
 10
525.0263878828437
 20
437.5870092707405
 30
0.0
 11
525.0263878828437
 21
477.4870092707405
 31
0.0
  0
LINE
  5
1DF
  8
BASE
 10
525.0263878828437
 20
477.4870092707405
 30
0.0
 11
527.0263878828437
 21
477.4870092707405
 31
0.0
  0
LINE
  5
1E0
  8
BASE
 10
527.0263878828437
 20
477.4870092707405
 30
0.0
 11
527.0263878828437
 21
517.6870092707405
 31
0.0
  0
LINE
  5
1E1
  8
BASE
 10
527.0263878828437
 20
517.6870092707405
 30
0.0
 11
525.0263878828437
 21
517.6870092707405
 31
0.0
  0
LINE
  5
1E2
  8
BASE
 10
525.0263878828437
 20
517.6870092707405
 30
0.0
 11
525.0263878828437
 21
557.4870092707405
 31
0.0
  0
LINE
  5
1E3
  8
BASE
 10
525.0263878828437
 20
557.4870092707405
 30
0.0
 11
527.0263878828437
 21
557.4870092707405
 31
0.0
  0
LINE
  5
1E4
  8
BASE
 10
527.0263878828437
 20
557.4870092707405
 30
0.0
 11
527.0263878828437
 21
597.6870092707405
 31
0.0
  0
LINE
  5
1E5
  8
BASE
 10
527.0263878828437
 20
597.6870092707405
 30
0.0
 11
525.0263878828437
 21
597.6870092707405
 31
0.0
  0
LINE
  5
1E6
  8
BASE
 10
525.0263878828437
 20
597.6870092707405
 30
0.0
 11
525.0263878828437
 21
637.5870092707405
 31
0.0
  0
LINE
  5
1E7
  8
BASE
 10
575.0263878828437
 20
437.5870092707405
 30
0.0
 11
575.0263878828437
 21
431.5870092707405
 31
0.0
  0
ENDSEC
  0
EOF
