  0
SECTION
  2
HEADER
  9
$ACADVER
  1
AC1009
  9
$DWGCODEPAGE
  3
ansi_1252
  9
$INSBASE
 10
0.0
 20
0.0
 30
0.0
  9
$EXTMIN
 10
-36.50377358490564
 20
-4.126415094339649
 30
0.0
  9
$EXTMAX
 10
578.2162264150944
 20
363.8735849056603
 30
0.0
  9
$LIMMIN
 10
0.0
 20
0.0
  9
$LIMMAX
 10
420.0
 20
297.0
  9
$ORTHOMODE
 70
     0
  9
$REGENMODE
 70
     1
  9
$FILLMODE
 70
     1
  9
$QTEXTMODE
 70
     0
  9
$MIRRTEXT
 70
     0
  9
$DRAGMODE
 70
     2
  9
$LTSCALE
 40
1.0
  9
$OSMODE
 70
   511
  9
$ATTMODE
 70
     1
  9
$TEXTSIZE
 40
2.5
  9
$TRACEWID
 40
1.0
  9
$TEXTSTYLE
  7
STANDARD
  9
$CLAYER
  8
0
  9
$CELTYPE
  6
BYLAYER
  9
$CECOLOR
 62
   256
  9
$DIMSCALE
 40
1.0
  9
$DIMASZ
 40
2.5
  9
$DIMEXO
 40
0.625
  9
$DIMDLI
 40
3.75
  9
$DIMRND
 40
0.0
  9
$DIMDLE
 40
0.0
  9
$DIMEXE
 40
1.25
  9
$DIMTP
 40
0.0
  9
$DIMTM
 40
0.0
  9
$DIMTXT
 40
2.5
  9
$DIMCEN
 40
2.5
  9
$DIMTSZ
 40
0.0
  9
$DIMTOL
 70
     0
  9
$DIMLIM
 70
     0
  9
$DIMTIH
 70
     0
  9
$DIMTOH
 70
     0
  9
$DIMSE1
 70
     0
  9
$DIMSE2
 70
     0
  9
$DIMTAD
 70
     1
  9
$DIMZIN
 70
     8
  9
$DIMBLK
  1

  9
$DIMASO
 70
     1
  9
$DIMSHO
 70
     1
  9
$DIMPOST
  1

  9
$DIMAPOST
  1

  9
$DIMALT
 70
     0
  9
$DIMALTD
 70
     3
  9
$DIMALTF
 40
0.03937007874016
  9
$DIMLFAC
 40
1.0
  9
$DIMTOFL
 70
     1
  9
$DIMTVP
 40
0.0
  9
$DIMTIX
 70
     0
  9
$DIMSOXD
 70
     0
  9
$DIMSAH
 70
     0
  9
$DIMBLK1
  1

  9
$DIMBLK2
  1

  9
$DIMSTYLE
  2
ISO-25
  9
$DIMCLRD
 70
     0
  9
$DIMCLRE
 70
     0
  9
$DIMCLRT
 70
     0
  9
$DIMTFAC
 40
1.0
  9
$DIMGAP
 40
0.625
  9
$LUNITS
 70
     2
  9
$LUPREC
 70
     3
  9
$SKETCHINC
 40
1.0
  9
$FILLETRAD
 40
10.0
  9
$AUNITS
 70
     0
  9
$AUPREC
 70
     0
  9
$MENU
  1
.
  9
$ELEVATION
 40
0.0
  9
$PELEVATION
 40
0.0
  9
$THICKNESS
 40
0.0
  9
$LIMCHECK
 70
     0
  9
$CHAMFERA
 40
10.0
  9
$CHAMFERB
 40
10.0
  9
$SKPOLY
 70
     0
  9
$TDCREATE
 40
2455022.720692847
  9
$TDUPDATE
 40
2456943.745888773
  9
$TDINDWG
 40
0.0339928125
  9
$TDUSRTIMER
 40
2456943.66237662
  9
$USRTIMER
 70
     1
  9
$ANGBASE
 50
0.0
  9
$ANGDIR
 70
     0
  9
$PDMODE
 70
     0
  9
$PDSIZE
 40
0.0
  9
$PLINEWID
 40
0.0
  9
$COORDS
 70
     1
  9
$SPLFRAME
 70
     0
  9
$SPLINETYPE
 70
     6
  9
$SPLINESEGS
 70
     8
  9
$ATTDIA
 70
     0
  9
$ATTREQ
 70
     1
  9
$HANDLING
 70
     1
  9
$HANDSEED
  5
213
  9
$SURFTAB1
 70
     6
  9
$SURFTAB2
 70
     6
  9
$SURFTYPE
 70
     6
  9
$SURFU
 70
     6
  9
$SURFV
 70
     6
  9
$UCSNAME
  2

  9
$UCSORG
 10
0.0
 20
0.0
 30
0.0
  9
$UCSXDIR
 10
1.0
 20
0.0
 30
0.0
  9
$UCSYDIR
 10
0.0
 20
1.0
 30
0.0
  9
$PUCSNAME
  2

  9
$PUCSORG
 10
0.0
 20
0.0
 30
0.0
  9
$PUCSXDIR
 10
1.0
 20
0.0
 30
0.0
  9
$PUCSYDIR
 10
0.0
 20
1.0
 30
0.0
  9
$USERI1
 70
     0
  9
$USERI2
 70
     0
  9
$USERI3
 70
     0
  9
$USERI4
 70
     0
  9
$USERI5
 70
     0
  9
$USERR1
 40
0.0
  9
$USERR2
 40
0.0
  9
$USERR3
 40
0.0
  9
$USERR4
 40
0.0
  9
$USERR5
 40
0.0
  9
$WORLDVIEW
 70
     1
  9
$SHADEDGE
 70
     3
  9
$SHADEDIF
 70
    70
  9
$TILEMODE
 70
     1
  9
$MAXACTVP
 70
    64
  9
$PLIMCHECK
 70
     0
  9
$PEXTMIN
 10
1.000000000000000E+20
 20
1.000000000000000E+20
 30
1.000000000000000E+20
  9
$PEXTMAX
 10
-1.000000000000000E+20
 20
-1.000000000000000E+20
 30
-1.000000000000000E+20
  9
$PLIMMIN
 10
0.0
 20
0.0
  9
$PLIMMAX
 10
0.0
 20
0.0
  9
$UNITMODE
 70
     0
  9
$VISRETAIN
 70
     1
  9
$PLINEGEN
 70
     0
  9
$PSLTSCALE
 70
     1
  0
ENDSEC
  0
SECTION
  2
TABLES
  0
TABLE
  2
VPORT
 70
     1
  0
VPORT
  2
*ACTIVE
 70
     0
 10
0.0
 20
0.0
 11
1.0
 21
1.0
 12
405.0431423029448
 22
179.8735849056604
 13
0.0
 23
0.0
 14
10.0
 24
10.0
 15
10.0
 25
10.0
 16
0.0
 26
0.0
 36
1.0
 17
-134.1869158878504
 27
0.0
 37
0.0
 40
375.36
 41
2.047169811320755
 42
50.0
 43
0.0
 44
0.0
 50
0.0
 51
0.0
 71
    16
 72
  1000
 73
     1
 74
     3
 75
     0
 76
     0
 77
     0
 78
     0
  0
ENDTAB
  0
TABLE
  2
LTYPE
 70
     1
  0
LTYPE
  2
CONTINUOUS
 70
     0
  3
Solid line
 72
    65
 73
     0
 40
0.0
  0
ENDTAB
  0
TABLE
  2
LAYER
 70
     2
  0
LAYER
  2
0
 70
     0
 62
     7
  6
CONTINUOUS
  0
LAYER
  2
BASE
 70
     0
 62
     3
  6
CONTINUOUS
  0
ENDTAB
  0
TABLE
  2
STYLE
 70
     1
  0
STYLE
  2
STANDARD
 70
     0
 40
0.0
 41
1.0
 50
0.0
 71
     0
 42
2.5
  3
arial.ttf
  4

  0
ENDTAB
  0
TABLE
  2
VIEW
 70
     0
  0
ENDTAB
  0
TABLE
  2
UCS
 70
     0
  0
ENDTAB
  0
TABLE
  2
APPID
 70
     2
  0
APPID
  2
ACAD
 70
     0
  0
APPID
  2
ACAECLAYERSTANDARD
 70
     0
  0
ENDTAB
  0
TABLE
  2
DIMSTYLE
 70
     1
  0
DIMSTYLE
  2
ISO-25
 70
     0
  3

  4

  5

  6

  7

 40
1.0
 41
2.5
 42
0.625
 43
3.75
 44
1.25
 45
0.0
 46
0.0
 47
0.0
 48
0.0
140
2.5
141
2.5
142
0.0
143
0.03937007874016
144
1.0
145
0.0
146
1.0
147
0.625
 71
     0
 72
     0
 73
     0
 74
     0
 75
     0
 76
     0
 77
     1
 78
     8
170
     0
171
     3
172
     1
173
     0
174
     0
175
     0
176
     0
177
     0
178
     0
  0
ENDTAB
  0
ENDSEC
  0
SECTION
  2
BLOCKS
  0
BLOCK
  8
0
  2
$MODEL_SPACE
 70
     0
 10
0.0
 20
0.0
 30
0.0
  3
$MODEL_SPACE
  1

  0
ENDBLK
  5
21
  8
0
  0
BLOCK
 67
     1
  8
0
  2
$PAPER_SPACE
 70
     0
 10
0.0
 20
0.0
 30
0.0
  3
$PAPER_SPACE
  1

  0
ENDBLK
  5
1D
 67
     1
  8
0
  0
ENDSEC
  0
SECTION
  2
ENTITIES
  0
LINE
  5
144
  8
BASE
 10
578.2162264150944
 20
363.8735849056603
 30
0.0
 11
147.4962264150944
 21
363.8735849056603
 31
0.0
  0
LINE
  5
145
  8
BASE
 10
385.2162264150944
 20
-4.126415094339649
 30
0.0
 11
147.4962264150944
 21
-4.126415094339649
 31
0.0
  0
ARC
  5
146
  8
BASE
 10
147.4962264150944
 20
179.8735849056604
 30
0.0
 40
184.0
 50
90.0
 51
269.9999999999998
  0
LINE
  5
147
  8
BASE
 10
165.7662264150942
 20
297.8735849056603
 30
0.0
 11
115.5662264150942
 21
297.8735849056603
 31
0.0
  0
LINE
  5
148
  8
BASE
 10
115.5662264150942
 20
291.6735849056603
 30
0.0
 11
165.7662264150942
 21
291.6735849056603
 31
0.0
  0
LINE
  5
149
  8
BASE
 10
165.7662264150942
 20
346.0735849056603
 30
0.0
 11
115.5662264150942
 21
346.0735849056603
 31
0.0
  0
LINE
  5
14A
  8
BASE
 10
115.5662264150942
 20
339.8735849056603
 30
0.0
 11
165.7662264150942
 21
339.8735849056603
 31
0.0
  0
CIRCLE
  5
14B
  8
BASE
 10
320.2162264150944
 20
179.8735849056604
 30
0.0
 40
27.6
  0
LINE
  5
14C
  8
BASE
 10
175.6662264150942
 20
-4.126415094339649
 30
0.0
 11
578.2162264150944
 21
-4.126415094339649
 31
0.0
  0
LINE
  5
14D
  8
BASE
 10
175.6662264150942
 20
363.8735849056603
 30
0.0
 11
369.2162264150944
 21
363.8735849056603
 31
0.0
  0
CIRCLE
  5
14E
  8
BASE
 10
-21.50377358490564
 20
179.8735849056604
 30
0.0
 40
4.0
  0
CIRCLE
  5
14F
  8
BASE
 10
1.137933175524125
 20
95.37358490566035
 30
0.0
 40
4.0
  0
CIRCLE
  5
150
  8
BASE
 10
1.137933175524125
 20
264.3735849056602
 30
0.0
 40
4.0
  0
CIRCLE
  5
159
  8
BASE
 10
25.17173950428864
 20
224.3960570630791
 30
0.0
 40
2.499999999999999
  0
CIRCLE
  5
15A
  8
BASE
 10
170.1008779428872
 20
51.67623565729619
 30
0.0
 40
2.499999999999999
  0
CIRCLE
  5
15B
  8
BASE
 10
23.21292071798948
 20
108.1185849056601
 30
0.0
 40
2.499999999999999
  0
CIRCLE
  5
15C
  8
BASE
 10
147.4962264150944
 20
36.36358490566025
 30
0.0
 40
2.499999999999999
  0
CIRCLE
  5
15D
  8
BASE
 10
271.7795321121993
 20
108.1185849056601
 30
0.0
 40
2.499999999999999
  0
CIRCLE
  5
15E
  8
BASE
 10
247.2160617981072
 20
263.5484619966055
 30
0.0
 40
2.499999999999999
  0
CIRCLE
  5
15F
  8
BASE
 10
271.779532112199
 20
251.6285849056602
 30
0.0
 40
2.499999999999999
  0
CIRCLE
  5
160
  8
BASE
 10
147.4962264150946
 20
323.3835849056603
 30
0.0
 40
2.499999999999999
  0
CIRCLE
  5
161
  8
BASE
 10
23.2129207179897
 20
251.6285849056602
 30
0.0
 40
2.499999999999999
  0
CIRCLE
  5
162
  8
BASE
 10
147.4962264150948
 20
179.87358490566
 30
0.0
 40
11.25
  0
LINE
  5
163
  8
BASE
 10
165.7662264150942
 20
346.0735849056603
 30
0.0
 11
165.7662264150942
 21
339.8735849056603
 31
0.0
  0
LINE
  5
164
  8
BASE
 10
165.7662264150942
 20
297.8735849056603
 30
0.0
 11
165.7662264150942
 21
291.6735849056603
 31
0.0
  0
LINE
  5
167
  8
BASE
 10
115.5662264150942
 20
346.0735849056603
 30
0.0
 11
115.5662264150942
 21
339.8735849056603
 31
0.0
  0
LINE
  5
168
  8
BASE
 10
115.5662264150942
 20
297.8735849056603
 30
0.0
 11
115.5662264150942
 21
291.6735849056603
 31
0.0
  0
CIRCLE
  5
16D
  8
BASE
 10
162.6516709813224
 20
188.62358490566
 30
0.0
 40
2.5
  0
CIRCLE
  5
16F
  8
BASE
 10
132.3407818488671
 20
188.6235849056599
 30
0.0
 40
2.5
  0
LINE
  5
170
  8
BASE
 10
75.76622641509417
 20
297.9735849056603
 30
0.0
 11
35.56622641509417
 21
297.9735849056603
 31
0.0
  0
LINE
  5
171
  8
BASE
 10
35.56622641509417
 20
297.9735849056603
 30
0.0
 11
35.56622641509417
 21
291.7735849056603
 31
0.0
  0
LINE
  5
172
  8
BASE
 10
35.56622641509417
 20
291.7735849056603
 30
0.0
 11
75.76622641509417
 21
291.7735849056603
 31
0.0
  0
LINE
  5
173
  8
BASE
 10
75.76622641509417
 20
291.7735849056603
 30
0.0
 11
75.76622641509417
 21
297.9735849056603
 31
0.0
  0
LINE
  5
17A
  8
BASE
 10
568.3162264150944
 20
264.9735849056603
 30
0.0
 11
528.1162264150944
 21
264.9735849056603
 31
0.0
  0
LINE
  5
17B
  8
BASE
 10
488.3162264150944
 20
264.9735849056603
 30
0.0
 11
448.1162264150943
 21
264.9735849056603
 31
0.0
  0
LINE
  5
17D
  8
BASE
 10
388.1162264150944
 20
224.9735849056603
 30
0.0
 11
388.1162264150944
 21
184.7735849056603
 31
0.0
  0
LINE
  5
17E
  8
BASE
 10
388.1162264150944
 20
144.9735849056603
 30
0.0
 11
388.1162264150945
 21
104.7735849056603
 31
0.0
  0
LINE
  5
17F
  8
BASE
 10
568.3162264150944
 20
264.9735849056603
 30
0.0
 11
568.3162264150944
 21
262.7735849056603
 31
0.0
  0
LINE
  5
180
  8
BASE
 10
568.3162264150944
 20
262.7735849056603
 30
0.0
 11
528.1162264150944
 21
262.7735849056603
 31
0.0
  0
LINE
  5
181
  8
BASE
 10
528.1162264150944
 20
262.8735849056603
 30
0.0
 11
528.1162264150944
 21
264.8735849056603
 31
0.0
  0
LINE
  5
182
  8
BASE
 10
488.3162264150944
 20
264.9735849056603
 30
0.0
 11
488.3162264150944
 21
262.7735849056603
 31
0.0
  0
LINE
  5
183
  8
BASE
 10
488.3162264150944
 20
262.7735849056603
 30
0.0
 11
448.1162264150943
 21
262.7735849056603
 31
0.0
  0
LINE
  5
184
  8
BASE
 10
448.1162264150943
 20
262.7735849056603
 30
0.0
 11
448.1162264150943
 21
264.9735849056603
 31
0.0
  0
LINE
  5
185
  8
BASE
 10
408.3162264150943
 20
264.9735849056603
 30
0.0
 11
408.3162264150943
 21
262.7735849056603
 31
0.0
  0
LINE
  5
186
  8
BASE
 10
408.3162264150943
 20
262.7735849056603
 30
0.0
 11
388.1162264150944
 21
262.7735849056603
 31
0.0
  0
LINE
  5
187
  8
BASE
 10
388.1162264150944
 20
262.7735849056603
 30
0.0
 11
388.1162264150944
 21
264.9735849056603
 31
0.0
  0
LINE
  5
188
  8
BASE
 10
388.1162264150944
 20
264.9735849056603
 30
0.0
 11
408.3162264150943
 21
264.9735849056603
 31
0.0
  0
LINE
  5
195
  8
BASE
 10
388.1162264150945
 20
104.7735849056603
 30
0.0
 11
390.3162264150945
 21
104.7735849056603
 31
0.0
  0
LINE
  5
196
  8
BASE
 10
390.3162264150945
 20
104.7735849056603
 30
0.0
 11
390.3162264150945
 21
144.9735849056603
 31
0.0
  0
LINE
  5
197
  8
BASE
 10
390.3162264150945
 20
144.9735849056603
 30
0.0
 11
388.1162264150944
 21
144.9735849056603
 31
0.0
  0
LINE
  5
198
  8
BASE
 10
388.1162264150944
 20
184.7735849056603
 30
0.0
 11
390.3162264150944
 21
184.7735849056603
 31
0.0
  0
LINE
  5
199
  8
BASE
 10
390.3162264150944
 20
184.7735849056603
 30
0.0
 11
390.3162264150944
 21
224.9735849056603
 31
0.0
  0
LINE
  5
19A
  8
BASE
 10
390.3162264150944
 20
224.9735849056603
 30
0.0
 11
388.1162264150944
 21
224.9735849056603
 31
0.0
  0
LINE
  5
19B
  8
BASE
 10
576.1162264150944
 20
224.9735849056604
 30
0.0
 11
576.1162264150944
 21
184.7735849056604
 31
0.0
  0
LINE
  5
19C
  8
BASE
 10
576.1162264150944
 20
144.9735849056604
 30
0.0
 11
576.1162264150944
 21
104.7735849056604
 31
0.0
  0
LINE
  5
19D
  8
BASE
 10
576.1162264150944
 20
104.7735849056604
 30
0.0
 11
578.2162264150944
 21
104.7735849056604
 31
0.0
  0
LINE
  5
19E
  8
BASE
 10
578.2162264150944
 20
144.9735849056604
 30
0.0
 11
576.1162264150944
 21
144.9735849056604
 31
0.0
  0
LINE
  5
19F
  8
BASE
 10
576.1162264150944
 20
184.7735849056604
 30
0.0
 11
578.2162264150944
 21
184.7735849056604
 31
0.0
  0
LINE
  5
1A0
  8
BASE
 10
578.2162264150944
 20
224.9735849056604
 30
0.0
 11
576.1162264150944
 21
224.9735849056604
 31
0.0
  0
LINE
  5
1A1
  8
BASE
 10
578.2162264150944
 20
363.8735849056603
 30
0.0
 11
578.2162264150944
 21
224.9735849056604
 31
0.0
  0
LINE
  5
1A2
  8
BASE
 10
578.2162264150944
 20
184.7735849056604
 30
0.0
 11
578.2162264150944
 21
144.9735849056604
 31
0.0
  0
LINE
  5
1A3
  8
BASE
 10
578.2162264150944
 20
104.7735849056604
 30
0.0
 11
578.2162264150944
 21
-4.126415094339649
 31
0.0
  0
CIRCLE
  5
1A4
  8
BASE
 10
320.2162264150944
 20
215.8735849056604
 30
0.0
 40
3.0
  0
CIRCLE
  5
1A5
  8
BASE
 10
284.2162264150944
 20
179.8735849056604
 30
0.0
 40
3.0
  0
CIRCLE
  5
1A6
  8
BASE
 10
320.2162264150944
 20
143.8735849056604
 30
0.0
 40
3.0
  0
CIRCLE
  5
1A7
  8
BASE
 10
356.2162264150944
 20
179.8735849056604
 30
0.0
 40
3.0
  0
CIRCLE
  5
1A8
  8
BASE
 10
563.2162264150944
 20
348.8735849056603
 30
0.0
 40
4.0
  0
CIRCLE
  5
1A9
  8
BASE
 10
563.2162264150944
 20
10.87358490566032
 30
0.0
 40
4.0
  0
LINE
  5
1E5
  8
BASE
 10
115.5662264150941
 20
200.9735849056604
 30
0.0
 11
115.5662264150941
 21
194.7735849056604
 31
0.0
  0
LINE
  5
1E6
  8
BASE
 10
115.5662264150941
 20
164.9735849056603
 30
0.0
 11
115.5662264150941
 21
158.7735849056603
 31
0.0
  0
LINE
  5
1E9
  8
BASE
 10
35.56622641509415
 20
200.9735849056604
 30
0.0
 11
35.56622641509415
 21
194.7735849056604
 31
0.0
  0
LINE
  5
1EA
  8
BASE
 10
35.56622641509415
 20
164.9735849056603
 30
0.0
 11
35.56622641509415
 21
158.7735849056603
 31
0.0
  0
LINE
  5
1EB
  8
BASE
 10
75.76622641509414
 20
200.9735849056604
 30
0.0
 11
35.56622641509415
 21
200.9735849056604
 31
0.0
  0
LINE
  5
1EC
  8
BASE
 10
35.56622641509415
 20
194.7735849056604
 30
0.0
 11
75.76622641509414
 21
194.7735849056604
 31
0.0
  0
LINE
  5
1ED
  8
BASE
 10
75.76622641509414
 20
194.7735849056604
 30
0.0
 11
75.76622641509414
 21
200.9735849056604
 31
0.0
  0
LINE
  5
1EE
  8
BASE
 10
165.7662264150941
 20
200.9735849056604
 30
0.0
 11
115.5662264150941
 21
200.9735849056604
 31
0.0
  0
LINE
  5
1EF
  8
BASE
 10
115.5662264150941
 20
194.7735849056604
 30
0.0
 11
165.7662264150941
 21
194.7735849056604
 31
0.0
  0
LINE
  5
1F0
  8
BASE
 10
75.76622641509414
 20
164.9735849056603
 30
0.0
 11
35.56622641509415
 21
164.9735849056603
 31
0.0
  0
LINE
  5
1F1
  8
BASE
 10
35.56622641509415
 20
158.7735849056603
 30
0.0
 11
75.76622641509414
 21
158.7735849056603
 31
0.0
  0
LINE
  5
1F2
  8
BASE
 10
75.76622641509414
 20
158.7735849056603
 30
0.0
 11
75.76622641509414
 21
164.9735849056603
 31
0.0
  0
LINE
  5
1F3
  8
BASE
 10
165.7662264150941
 20
164.9735849056603
 30
0.0
 11
115.5662264150941
 21
164.9735849056603
 31
0.0
  0
LINE
  5
1F4
  8
BASE
 10
115.5662264150941
 20
158.7735849056603
 30
0.0
 11
165.7662264150941
 21
158.7735849056603
 31
0.0
  0
LINE
  5
1F5
  8
BASE
 10
165.7662264150941
 20
164.9735849056603
 30
0.0
 11
165.7662264150941
 21
158.7735849056603
 31
0.0
  0
LINE
  5
1F6
  8
BASE
 10
165.7662264150941
 20
200.9735849056604
 30
0.0
 11
165.7662264150941
 21
194.7735849056604
 31
0.0
  0
LINE
  5
1F9
  8
BASE
 10
165.6662264150941
 20
62.09675118586421
 30
0.0
 11
115.4662264150942
 21
62.09675118586421
 31
0.0
  0
LINE
  5
1FA
  8
BASE
 10
115.4662264150942
 20
68.2967511858642
 30
0.0
 11
165.6662264150941
 21
68.2967511858642
 31
0.0
  0
LINE
  5
1FB
  8
BASE
 10
165.6662264150941
 20
62.09675118586421
 30
0.0
 11
165.6662264150941
 21
68.2967511858642
 31
0.0
  0
LINE
  5
1FC
  8
BASE
 10
115.4662264150942
 20
62.09675118586421
 30
0.0
 11
115.4662264150942
 21
68.2967511858642
 31
0.0
  0
LINE
  5
1FD
  8
BASE
 10
75.66622641509412
 20
61.99675118586418
 30
0.0
 11
35.46622641509416
 21
61.99675118586418
 31
0.0
  0
LINE
  5
1FE
  8
BASE
 10
35.46622641509416
 20
61.99675118586418
 30
0.0
 11
35.46622641509416
 21
68.19675118586423
 31
0.0
  0
LINE
  5
1FF
  8
BASE
 10
35.46622641509416
 20
68.19675118586423
 30
0.0
 11
75.66622641509412
 21
68.19675118586423
 31
0.0
  0
LINE
  5
200
  8
BASE
 10
75.66622641509412
 20
68.19675118586423
 30
0.0
 11
75.66622641509412
 21
61.99675118586418
 31
0.0
  0
LINE
  5
201
  8
BASE
 10
165.6662264150942
 20
13.89675118586422
 30
0.0
 11
115.4662264150942
 21
13.89675118586422
 31
0.0
  0
LINE
  5
202
  8
BASE
 10
115.4662264150942
 20
20.09675118586421
 30
0.0
 11
165.6662264150942
 21
20.09675118586421
 31
0.0
  0
LINE
  5
203
  8
BASE
 10
165.6662264150942
 20
13.89675118586422
 30
0.0
 11
165.6662264150942
 21
20.09675118586421
 31
0.0
  0
LINE
  5
204
  8
BASE
 10
115.4662264150942
 20
13.89675118586422
 30
0.0
 11
115.4662264150942
 21
20.09675118586421
 31
0.0
  0
LINE
  5
207
  8
BASE
 10
568.3162264150944
 20
96.97358490566035
 30
0.0
 11
528.1162264150944
 21
96.97358490566035
 31
0.0
  0
LINE
  5
208
  8
BASE
 10
488.3162264150944
 20
96.97358490566035
 30
0.0
 11
448.1162264150943
 21
96.97358490566035
 31
0.0
  0
LINE
  5
209
  8
BASE
 10
568.3162264150944
 20
96.97358490566035
 30
0.0
 11
568.3162264150944
 21
94.7735849056603
 31
0.0
  0
LINE
  5
20A
  8
BASE
 10
568.3162264150944
 20
94.7735849056603
 30
0.0
 11
528.1162264150944
 21
94.7735849056603
 31
0.0
  0
LINE
  5
20B
  8
BASE
 10
528.1162264150944
 20
94.87358490566032
 30
0.0
 11
528.1162264150944
 21
96.87358490566032
 31
0.0
  0
LINE
  5
20C
  8
BASE
 10
488.3162264150944
 20
96.97358490566035
 30
0.0
 11
488.3162264150944
 21
94.7735849056603
 31
0.0
  0
LINE
  5
20D
  8
BASE
 10
488.3162264150944
 20
94.7735849056603
 30
0.0
 11
448.1162264150943
 21
94.7735849056603
 31
0.0
  0
LINE
  5
20E
  8
BASE
 10
448.1162264150943
 20
94.7735849056603
 30
0.0
 11
448.1162264150943
 21
96.97358490566035
 31
0.0
  0
LINE
  5
20F
  8
BASE
 10
408.3162264150943
 20
96.97358490566035
 30
0.0
 11
408.3162264150943
 21
94.7735849056603
 31
0.0
  0
LINE
  5
210
  8
BASE
 10
408.3162264150943
 20
94.7735849056603
 30
0.0
 11
388.1162264150944
 21
94.7735849056603
 31
0.0
  0
LINE
  5
211
  8
BASE
 10
388.1162264150944
 20
94.7735849056603
 30
0.0
 11
388.1162264150944
 21
96.97358490566035
 31
0.0
  0
LINE
  5
212
  8
BASE
 10
388.1162264150944
 20
96.97358490566035
 30
0.0
 11
408.3162264150943
 21
96.97358490566035
 31
0.0
  0
ENDSEC
  0
EOF
